  0
SECTION
  2
HEADER
  9
$ACADVER
  1
AC1009
  9
$INSBASE
 10
0.0
 20
0.0
 30
0.0
  9
$EXTMIN
 10
133.1380908395713
 20
66.609511582547611
 30
0.0
  9
$EXTMAX
 10
417.5316899026638
 20
365.749790493094
 30
0.0
  9
$LIMMIN
 10
0.0
 20
0.0
  9
$LIMMAX
 10
12.0
 20
9.0
  9
$ORTHOMODE
 70
     1
  9
$REGENMODE
 70
     1
  9
$FILLMODE
 70
     1
  9
$QTEXTMODE
 70
     0
  9
$MIRRTEXT
 70
     0
  9
$DRAGMODE
 70
     2
  9
$LTSCALE
 40
4.0
  9
$OSMODE
 70
  2239
  9
$ATTMODE
 70
     1
  9
$TEXTSIZE
 40
3.0
  9
$TRACEWID
 40
0.05
  9
$TEXTSTYLE
  7
DUKI_0_5
  9
$CLAYER
  8
HIDE
  9
$CELTYPE
  6
BYLAYER
  9
$CECOLOR
 62
   256
  9
$DIMSCALE
 40
1.0
  9
$DIMASZ
 40
2.5
  9
$DIMEXO
 40
1.0
  9
$DIMDLI
 40
1.0
  9
$DIMRND
 40
0.0
  9
$DIMDLE
 40
0.0
  9
$DIMEXE
 40
1.0
  9
$DIMTP
 40
0.0
  9
$DIMTM
 40
0.0
  9
$DIMTXT
 40
4.0
  9
$DIMCEN
 40
1.0
  9
$DIMTSZ
 40
0.0
  9
$DIMTOL
 70
     0
  9
$DIMLIM
 70
     0
  9
$DIMTIH
 70
     0
  9
$DIMTOH
 70
     0
  9
$DIMSE1
 70
     0
  9
$DIMSE2
 70
     0
  9
$DIMTAD
 70
     1
  9
$DIMZIN
 70
     8
  9
$DIMBLK
  1

  9
$DIMASO
 70
     1
  9
$DIMSHO
 70
     1
  9
$DIMPOST
  1

  9
$DIMAPOST
  1

  9
$DIMALT
 70
     0
  9
$DIMALTD
 70
     2
  9
$DIMALTF
 40
25.399999999999999
  9
$DIMLFAC
 40
1.0
  9
$DIMTOFL
 70
     1
  9
$DIMTVP
 40
0.0
  9
$DIMTIX
 70
     0
  9
$DIMSOXD
 70
     0
  9
$DIMSAH
 70
     0
  9
$DIMBLK1
  1

  9
$DIMBLK2
  1

  9
$DIMSTYLE
  2
DUKI2-1
  9
$DIMCLRD
 70
     5
  9
$DIMCLRE
 70
     5
  9
$DIMCLRT
 70
     2
  9
$DIMTFAC
 40
1.0
  9
$DIMGAP
 40
1.5
  9
$LUNITS
 70
     2
  9
$LUPREC
 70
     4
  9
$SKETCHINC
 40
0.1
  9
$FILLETRAD
 40
0.2
  9
$AUNITS
 70
     0
  9
$AUPREC
 70
     0
  9
$MENU
  1
.
  9
$ELEVATION
 40
0.0
  9
$PELEVATION
 40
0.0
  9
$THICKNESS
 40
0.0
  9
$LIMCHECK
 70
     0
  9
$BLIPMODE
 70
     0
  9
$CHAMFERA
 40
0.5
  9
$CHAMFERB
 40
0.5
  9
$SKPOLY
 70
     0
  9
$TDCREATE
 40
2454735.4500803361
  9
$TDUPDATE
 40
2456630.451023438
  9
$TDINDWG
 40
0.018469537
  9
$TDUSRTIMER
 40
0.018469375
  9
$USRTIMER
 70
     1
  9
$ANGBASE
 50
0.0
  9
$ANGDIR
 70
     0
  9
$PDMODE
 70
     0
  9
$PDSIZE
 40
0.0
  9
$PLINEWID
 40
0.0
  9
$COORDS
 70
     1
  9
$SPLFRAME
 70
     0
  9
$SPLINETYPE
 70
     6
  9
$SPLINESEGS
 70
     8
  9
$ATTDIA
 70
     0
  9
$ATTREQ
 70
     1
  9
$HANDLING
 70
     1
  9
$HANDSEED
  5
1AFA6
  9
$SURFTAB1
 70
     6
  9
$SURFTAB2
 70
     6
  9
$SURFTYPE
 70
     6
  9
$SURFU
 70
     6
  9
$SURFV
 70
     6
  9
$UCSNAME
  2

  9
$UCSORG
 10
0.0
 20
0.0
 30
0.0
  9
$UCSXDIR
 10
1.0
 20
0.0
 30
0.0
  9
$UCSYDIR
 10
0.0
 20
1.0
 30
0.0
  9
$PUCSNAME
  2

  9
$PUCSORG
 10
0.0
 20
0.0
 30
0.0
  9
$PUCSXDIR
 10
1.0
 20
0.0
 30
0.0
  9
$PUCSYDIR
 10
0.0
 20
1.0
 30
0.0
  9
$USERI1
 70
     0
  9
$USERI2
 70
     0
  9
$USERI3
 70
     0
  9
$USERI4
 70
     0
  9
$USERI5
 70
     0
  9
$USERR1
 40
0.0
  9
$USERR2
 40
0.0
  9
$USERR3
 40
0.0
  9
$USERR4
 40
0.0
  9
$USERR5
 40
0.0
  9
$WORLDVIEW
 70
     1
  9
$SHADEDGE
 70
     3
  9
$SHADEDIF
 70
    70
  9
$TILEMODE
 70
     1
  9
$MAXACTVP
 70
    48
  9
$PLIMCHECK
 70
     0
  9
$PEXTMIN
 10
0.0
 20
0.0
 30
0.0
  9
$PEXTMAX
 10
0.0
 20
0.0
 30
0.0
  9
$PLIMMIN
 10
0.0
 20
0.0
  9
$PLIMMAX
 10
12.0
 20
9.0
  9
$UNITMODE
 70
     0
  9
$VISRETAIN
 70
     1
  9
$PLINEGEN
 70
     0
  9
$PSLTSCALE
 70
     1
  0
ENDSEC
  0
SECTION
  2
TABLES
  0
TABLE
  2
VPORT
 70
     1
  0
VPORT
  2
*ACTIVE
 70
     0
 10
0.0
 20
0.0
 11
1.0
 21
1.0
 12
356.77856573732379
 22
212.0262314530529
 13
0.0
 23
0.0
 14
0.5
 24
0.5
 15
0.5
 25
0.5
 16
0.0
 26
0.0
 36
1.0
 17
0.0
 27
0.0
 37
0.0
 40
344.11161911630097
 41
2.1408934707903771
 42
50.0
 43
0.0
 44
0.0
 50
0.0
 51
0.0
 71
     0
 72
  2000
 73
     1
 74
     3
 75
     0
 76
     0
 77
     0
 78
     0
  0
ENDTAB
  0
TABLE
  2
LTYPE
 70
     5
  0
LTYPE
  2
CONTINUOUS
 70
     0
  3
Solid line
 72
    65
 73
     0
 40
0.0
  0
LTYPE
  2
PHANTOM2
 70
     0
  3
Phantom (.5x) ___ _ _ ___ _ _ ___ _ _ ___ _ _
 72
    65
 73
     6
 40
1.25
 49
0.625
 49
-0.125
 49
0.125
 49
-0.125
 49
0.125
 49
-0.125
  0
LTYPE
  2
CENTER
 70
     0
  3
___ _ ___ _ ___ _ ___ _ ___ _ ___ _ ___ _ ___ _
 72
    65
 73
     4
 40
0.95
 49
0.625
 49
-0.125
 49
0.075
 49
-0.125
  0
LTYPE
  2
DASHED2
 70
     0
  3
Dashed (.5x) _ _ _ _ _ _ _ _ _ _ _ _ _ _ _ _ _
 72
    65
 73
     2
 40
0.375
 49
0.25
 49
-0.125
  0
ENDTAB
  0
TABLE
  2
LAYER
 70
     4
  0
LAYER
  2
0
 70
     0
 62
     7
  6
CONTINUOUS
  0
LAYER
  2
HIDE
 70
     0
 62
     1
  6
DASHED2
  0
LAYER
  2
CENTER
 70
     0
 62
     3
  6
CENTER
  0
ENDTAB
  0
TABLE
  2
STYLE
 70
     9
  0
STYLE
  2
STANDARD
 70
     0
 40
5.0
 41
1.0
 50
0.0
 71
     0
 42
5.0
  3
txt.shx
  4
whgtxt.shx
  0
STYLE
  2
DUKI_0_5
 70
     0
 40
3.0
 41
1.0
 50
0.0
 71
     0
 42
3.0
  3
txt
  4

  0
STYLE
  2
DUKI2-1
 70
     0
 40
4.0
 41
1.0
 50
0.0
 71
     0
 42
4.0
  3
txt
  4

  0
ENDTAB
  0
TABLE
  2
VIEW
 70
     0
  0
ENDTAB
  0
TABLE
  2
UCS
 70
     0
  0
ENDTAB
  0
TABLE
  2
APPID
 70
    20
  0
APPID
  2
ACAD
 70
     0
  0
APPID
  2
ACADANNOTATIVE
 70
     0
  0
APPID
  2
ACAD_EXEMPT_FROM_CAD_STANDARDS
 70
     0
  0
APPID
  2
ACAD_DSTYLE_DIMJOGGED_JOGA
 70
     0
  0
APPID
  2
ACAD_PSEXT
 70
     0
  0
APPID
  2
ACAECLAYERSTANDARD
 70
     0
  0
APPID
  2
DCO15
 70
     0
  0
APPID
  2
ACAD_MLEADERVER
 70
     0
  0
APPID
  2
ACAD_DSTYLE_DIMJAG
 70
     0
  0
APPID
  2
ACAD_DSTYLE_DIMBREAK
 70
     0
  0
APPID
  2
ACAD_DSTYLE_DIMTALN
 70
     0
  0
APPID
  2
ACAD_DSTYLE_DIMRADIAL_EXTENSION
 70
     0
  0
APPID
  2
ACAD_DSTYLE_DIMTEXT_FILL
 70
     0
  0
APPID
  2
ACADANNOPO
 70
     0
  0
APPID
  2
ACADSTRINGINFO
 70
     0
  0
APPID
  2
CONTENTBLOCKICON
 70
     0
  0
APPID
  2
ACAD_NAV_VCDISPLAY
 70
     0
  0
APPID
  2
ACDBDYNAMICBLOCKTRUENAME2
 70
     0
  0
APPID
  2
CAXA_DRAFT_DIMSTYLE_ANGTXTVPOS
 70
     0
  0
APPID
  2
CAXA_DRAFT_TXTSTYLE
 70
     0
  0
ENDTAB
  0
TABLE
  2
DIMSTYLE
 70
     9
  0
DIMSTYLE
  2
DUKI2-1
 70
     0
  3

  4

  5

  6

  7

 40
1.0
 41
2.5
 42
1.0
 43
1.0
 44
1.0
 45
0.0
 46
0.0
 47
0.0
 48
0.0
140
4.0
141
1.0
142
0.0
143
25.399999999999999
144
1.0
145
0.0
146
1.0
147
1.5
 71
     0
 72
     0
 73
     0
 74
     0
 75
     0
 76
     0
 77
     1
 78
     8
170
     0
171
     2
172
     1
173
     0
174
     0
175
     0
176
     5
177
     5
178
     2
  0
ENDTAB
  0
ENDSEC
  0
SECTION
  2
BLOCKS
  0
BLOCK
  8
0
  2
$MODEL_SPACE
 70
     0
 10
0.0
 20
0.0
 30
0.0
  3
$MODEL_SPACE
  1

  0
ENDBLK
  5
1AD74
  8
0
  0
BLOCK
 67
     1
  8
0
  2
$PAPER_SPACE
 70
     0
 10
0.0
 20
0.0
 30
0.0
  3
$PAPER_SPACE
  1

  0
ENDBLK
  5
1AD70
 67
     1
  8
0
  0
BLOCK
  8
0
  2
*U5
 70
     1
 10
0.0
 20
0.0
 30
0.0
  3
*U5
  1

  0
TEXT
  5
1AA62
  8
0
 10
234.2642436395484
 20
66.609511582547611
 30
0.0
 40
15.0
  1
BK35
  7
DUKI2-1
  0
ENDBLK
  5
1AA64
  8
0
  0
ENDSEC
  0
SECTION
  2
ENTITIES
  0
INSERT
  5
1AA3D
  8
0
  2
*U5
 10
0.0
 20
0.0
 30
0.0
  0
ARC
  5
1AB59
  8
HIDE
 10
208.1380753395714
 20
165.94967571219399
 30
0.0
 40
17.5
 50
270.0
 51
180.0
  0
LINE
  5
1AB5B
  8
0
 10
214.08970546968339
 20
136.5459667829725
 30
0.0
 11
237.54178426879659
 21
159.99804558209121
 31
0.0
  0
LINE
  5
1AB5C
  8
0
 10
178.73436641034641
 20
171.90130584229311
 30
0.0
 11
202.1864452094523
 21
195.35338464141361
 31
0.0
  0
LINE
  5
1AB5E
  8
0
 10
202.18644520948149
 20
136.54596678296889
 30
0.0
 11
178.73436641034641
 21
159.99804558211301
 31
0.0
  0
LINE
  5
1AB5F
  8
0
 10
237.54178426878931
 20
171.90130584231309
 30
0.0
 11
214.089705469698
 21
195.35338464141171
 31
0.0
  0
CIRCLE
  5
1AB60
  8
0
 10
208.1380753395714
 20
165.94967571219399
 30
0.0
 40
16.75
  0
ARC
  5
1AB61
  8
0
 10
208.1380753395714
 20
165.94967571219399
 30
0.0
 40
30.0
 50
348.5573097618863
 51
11.442690238113681
  0
ARC
  5
1AB62
  8
0
 10
208.1380753395714
 20
165.94967571219399
 30
0.0
 40
30.0
 50
78.557309761704829
 51
101.4426902382951
  0
ARC
  5
1AB63
  8
0
 10
208.1380753395714
 20
165.94967571219399
 30
0.0
 40
30.0
 50
168.5573097618863
 51
191.44269023801061
  0
ARC
  5
1AB64
  8
0
 10
208.1380753395714
 20
165.94967571219399
 30
0.0
 40
30.0
 50
258.55730976211362
 51
281.4426902378865
  0
CIRCLE
  5
1AB65
  8
HIDE
 10
208.1380753395714
 20
165.94967571219581
 30
0.0
 40
23.0
  0
LINE
  5
1AB87
  8
HIDE
 10
204.13807533956421
 20
195.68181320682891
 30
0.0
 11
204.13807533955699
 21
182.21505305180261
 31
0.0
  0
LINE
  5
1AB88
  8
HIDE
 10
212.1380753395643
 20
195.6818132068326
 30
0.0
 11
212.1380753395643
 21
182.21505305180989
 31
0.0
  0
LINE
  5
1AB89
  8
HIDE
 10
204.73807533957
 20
195.75638636600499
 30
0.0
 11
204.73807533957
 21
182.3509713927194
 31
0.0
  0
LINE
  5
1AB8A
  8
HIDE
 10
211.53807533955839
 20
195.75638636600681
 30
0.0
 11
211.538075339573
 21
182.3509713927194
 31
0.0
  0
LINE
  5
1AB8B
  8
HIDE
 10
204.73807533957
 20
185.94967571219399
 30
0.0
 11
211.538075339573
 21
185.94967571219399
 31
0.0
  0
LINE
  5
1AB8C
  8
HIDE
 10
204.73807533957
 20
185.94967571219399
 30
0.0
 11
204.13807533956421
 21
186.98890619673119
 31
0.0
  0
LINE
  5
1AB8D
  8
HIDE
 10
211.538075339573
 20
185.94967571219399
 30
0.0
 11
212.1380753395643
 21
186.98890619673119
 31
0.0
  0
LINE
  5
1AB8E
  8
HIDE
 10
204.13807533956421
 20
186.98890619673119
 30
0.0
 11
212.1380753395643
 21
186.98890619673119
 31
0.0
  0
LINE
  5
1AB8F
  8
HIDE
 10
204.13807533956421
 20
194.98890619673119
 30
0.0
 11
212.1380753395643
 21
194.98890619673119
 31
0.0
  0
LINE
  5
1AB90
  8
HIDE
 10
204.13807533954969
 20
136.21753821756801
 30
0.0
 11
204.13807533954969
 21
149.68429837259441
 31
0.0
  0
LINE
  5
1AB91
  8
HIDE
 10
212.13807533954969
 20
136.21753821756079
 30
0.0
 11
212.13807533955699
 21
149.6842983725835
 31
0.0
  0
LINE
  5
1AB92
  8
HIDE
 10
204.73807533955551
 20
136.14296505839201
 30
0.0
 11
204.73807533956281
 21
149.5483800316776
 31
0.0
  0
LINE
  5
1AB93
  8
HIDE
 10
211.53807533954381
 20
136.14296505838661
 30
0.0
 11
211.53807533956569
 21
149.54838003167399
 31
0.0
  0
LINE
  5
1AB94
  8
HIDE
 10
204.73807533955551
 20
145.94967571220309
 30
0.0
 11
211.53807533955839
 21
145.94967571219939
 31
0.0
  0
LINE
  5
1AB95
  8
HIDE
 10
204.73807533955551
 20
145.94967571220309
 30
0.0
 11
204.13807533954969
 21
144.9104452276658
 31
0.0
  0
LINE
  5
1AB96
  8
HIDE
 10
211.53807533955839
 20
145.94967571219939
 30
0.0
 11
212.13807533954969
 21
144.91044522766219
 31
0.0
  0
LINE
  5
1AB97
  8
HIDE
 10
204.13807533954969
 20
144.9104452276658
 30
0.0
 11
212.13807533954969
 21
144.91044522766219
 31
0.0
  0
LINE
  5
1AB98
  8
HIDE
 10
204.13807533954969
 20
136.9104452276658
 30
0.0
 11
212.13807533954969
 21
136.91044522766219
 31
0.0
  0
LINE
  5
1AB99
  8
CENTER
 10
328.69385731913769
 20
165.94967571218939
 30
0.0
 11
355.69385731913758
 21
165.94967571218939
 31
0.0
  0
LINE
  5
1AB9B
  8
0
 10
331.69385731913769
 20
135.94967571218939
 30
0.0
 11
331.69385731913769
 21
195.9496757121893
 31
0.0
  0
LINE
  5
1AB9C
  8
HIDE
 10
352.69385731913758
 20
142.9496757122003
 30
0.0
 11
352.69385731913758
 21
188.94967571219129
 31
0.0
  0
LINE
  5
1AB9D
  8
HIDE
 10
352.19385731913769
 20
135.94967571218939
 30
0.0
 11
352.19385731913769
 21
195.9496757121893
 31
0.0
  0
LINE
  5
1AB9E
  8
0
 10
331.69385731913769
 20
195.9496757121893
 30
0.0
 11
346.69382731913907
 21
195.9496757121893
 31
0.0
  0
LINE
  5
1AB9F
  8
0
 10
331.69385731913769
 20
135.94967571218939
 30
0.0
 11
346.69382731913907
 21
135.94967571218939
 31
0.0
  0
LINE
  5
1ABA0
  8
HIDE
 10
352.19385731913042
 20
189.44967571220221
 30
0.0
 11
352.69385731913042
 21
188.9496757121893
 31
0.0
  0
LINE
  5
1ABA1
  8
HIDE
 10
352.19385731913042
 20
142.44967571217671
 30
0.0
 11
352.69385731913042
 21
142.94967571218939
 31
0.0
  0
LINE
  5
1ABA2
  8
HIDE
 10
352.69385731913042
 20
183.4496757121893
 30
0.0
 11
331.69385731913769
 21
183.4496757121893
 31
0.0
  0
LINE
  5
1ABA3
  8
HIDE
 10
352.69385731913042
 20
182.69967571218751
 30
0.0
 11
331.69385731913769
 21
182.6996757121893
 31
0.0
  0
LINE
  5
1ABA4
  8
HIDE
 10
352.69385731913042
 20
148.44967571218939
 30
0.0
 11
331.69385731913769
 21
148.44967571218939
 31
0.0
  0
LINE
  5
1ABA5
  8
HIDE
 10
352.69385731913042
 20
149.19967571219121
 30
0.0
 11
331.69385731913769
 21
149.19967571218939
 31
0.0
  0
LINE
  5
1ABA6
  8
CENTER
 10
338.69385731913769
 20
198.40202209217441
 30
0.0
 11
338.69385731913769
 21
180.80062258488829
 31
0.0
  0
LINE
  5
1ABA7
  8
HIDE
 10
342.69385731914502
 20
195.9496757121893
 30
0.0
 11
342.69385731915219
 21
182.6996757121893
 31
0.0
  0
LINE
  5
1ABA8
  8
HIDE
 10
334.69385731914502
 20
195.9496757121893
 30
0.0
 11
334.69385731914502
 21
182.6996757121893
 31
0.0
  0
LINE
  5
1ABA9
  8
HIDE
 10
342.0938573191392
 20
195.9496757121893
 30
0.0
 11
342.0938573191392
 21
182.69967571218751
 31
0.0
  0
LINE
  5
1ABAA
  8
HIDE
 10
335.29385731915079
 20
195.9496757121893
 30
0.0
 11
335.29385731913618
 21
182.6996757121893
 31
0.0
  0
LINE
  5
1ABAB
  8
HIDE
 10
342.0938573191392
 20
185.9496757121893
 30
0.0
 11
335.29385731913618
 21
185.9496757121893
 31
0.0
  0
LINE
  5
1ABAC
  8
HIDE
 10
342.0938573191392
 20
185.9496757121893
 30
0.0
 11
342.69385731914502
 21
186.9889061967267
 31
0.0
  0
LINE
  5
1ABAD
  8
HIDE
 10
335.29385731913618
 20
185.9496757121893
 30
0.0
 11
334.69385731914502
 21
186.9889061967267
 31
0.0
  0
LINE
  5
1ABAE
  8
HIDE
 10
342.69385731914502
 20
186.9889061967267
 30
0.0
 11
334.69385731914502
 21
186.9889061967267
 31
0.0
  0
LINE
  5
1ABAF
  8
HIDE
 10
342.69385731914502
 20
194.9889061967267
 30
0.0
 11
334.69385731914502
 21
194.9889061967267
 31
0.0
  0
LINE
  5
1ABB0
  8
CENTER
 10
338.69385731913769
 20
133.49732933220429
 30
0.0
 11
338.69385731913769
 21
151.0987288394906
 31
0.0
  0
LINE
  5
1ABB1
  8
HIDE
 10
342.69385731914502
 20
135.94967571218939
 30
0.0
 11
342.69385731915219
 21
149.19967571218939
 31
0.0
  0
LINE
  5
1ABB2
  8
HIDE
 10
334.69385731914502
 20
135.94967571218939
 30
0.0
 11
334.69385731914502
 21
149.19967571218939
 31
0.0
  0
LINE
  5
1ABB3
  8
HIDE
 10
342.0938573191392
 20
135.94967571218939
 30
0.0
 11
342.0938573191392
 21
149.19967571219121
 31
0.0
  0
LINE
  5
1ABB4
  8
HIDE
 10
335.29385731915079
 20
135.94967571218939
 30
0.0
 11
335.29385731913618
 21
149.19967571218939
 31
0.0
  0
LINE
  5
1ABB5
  8
HIDE
 10
342.0938573191392
 20
145.94967571218939
 30
0.0
 11
335.29385731913618
 21
145.94967571218939
 31
0.0
  0
LINE
  5
1ABB6
  8
HIDE
 10
342.0938573191392
 20
145.94967571218939
 30
0.0
 11
342.69385731914502
 21
144.91044522765219
 31
0.0
  0
LINE
  5
1ABB7
  8
HIDE
 10
335.29385731913618
 20
145.94967571218939
 30
0.0
 11
334.69385731914502
 21
144.91044522765219
 31
0.0
  0
LINE
  5
1ABB8
  8
HIDE
 10
342.69385731914502
 20
144.91044522765219
 30
0.0
 11
334.69385731914502
 21
144.91044522765219
 31
0.0
  0
LINE
  5
1ABB9
  8
HIDE
 10
342.69385731914502
 20
136.91044522765219
 30
0.0
 11
334.69385731914502
 21
136.91044522765219
 31
0.0
  0
LINE
  5
1ABBA
  8
HIDE
 10
141.13809183957159
 20
192.94967571219581
 30
0.0
 11
141.13809183957159
 21
179.94967571219581
 31
0.0
  0
LINE
  5
1ABBB
  8
HIDE
 10
144.1380908395713
 20
179.94967571219581
 30
0.0
 11
144.1380908395713
 21
113.94967971219531
 31
0.0
  0
LINE
  5
1ABBC
  8
HIDE
 10
158.1380908395713
 20
179.94967571219581
 30
0.0
 11
158.1380908395713
 21
113.94967971219531
 31
0.0
  0
LINE
  5
1ABBD
  8
HIDE
 10
161.13808983957091
 20
192.94967571219581
 30
0.0
 11
161.13808983957091
 21
179.94967571219581
 31
0.0
  0
LINE
  5
1ABBE
  8
HIDE
 10
141.13809183957159
 20
179.94967571219581
 30
0.0
 11
161.13808983957091
 21
179.94967571219581
 31
0.0
  0
LINE
  5
1ABBF
  8
HIDE
 10
255.13809183957159
 20
179.94967571219581
 30
0.0
 11
275.13808983957091
 21
179.94967571219581
 31
0.0
  0
LINE
  5
1ABC0
  8
HIDE
 10
275.13808983957091
 20
192.94967571219581
 30
0.0
 11
275.13808983957091
 21
179.94967571219581
 31
0.0
  0
LINE
  5
1ABC1
  8
HIDE
 10
272.1380908395713
 20
179.94967571219581
 30
0.0
 11
272.1380908395713
 21
113.9496797121962
 31
0.0
  0
LINE
  5
1ABC2
  8
HIDE
 10
258.1380908395713
 20
179.94967571219581
 30
0.0
 11
258.1380908395713
 21
113.9496797121962
 31
0.0
  0
LINE
  5
1ABC3
  8
HIDE
 10
255.13809183957159
 20
192.94967571219581
 30
0.0
 11
255.13809183957159
 21
179.94967571219581
 31
0.0
  0
CIRCLE
  5
1ABC4
  8
0
 10
265.1380908395713
 20
165.94967571219581
 30
0.0
 40
5.5
  0
ARC
  5
1ABC5
  8
0
 10
208.1380908395713
 20
165.94967571219581
 30
0.0
 40
55.0
 50
128.57266000002659
 51
141.42733999997341
  0
CIRCLE
  5
1ABC6
  8
0
 10
151.1380908395713
 20
165.94967571219581
 30
0.0
 40
5.5
  0
CIRCLE
  5
1ABC7
  8
0
 10
151.1380908395713
 20
130.94968371219579
 30
0.0
 40
5.5
  0
CIRCLE
  5
1ABC8
  8
0
 10
265.1380908395713
 20
130.94968371219579
 30
0.0
 40
5.5
  0
CIRCLE
  5
1ABC9
  8
0
 10
208.1380908395713
 20
165.94967571219581
 30
0.0
 40
31.5
  0
CIRCLE
  5
1ABCA
  8
0
 10
177.37893583957151
 20
135.1905317121961
 30
0.0
 40
8.0
  0
CIRCLE
  5
1ABCB
  8
0
 10
238.8972458395711
 20
196.70883071219541
 30
0.0
 40
8.0
  0
CIRCLE
  5
1ABCC
  8
0
 10
177.37893583957151
 20
196.70883071219541
 30
0.0
 40
8.0
  0
CIRCLE
  5
1ABCD
  8
0
 10
238.8972458395711
 20
135.1905317121961
 30
0.0
 40
8.0
  0
ARC
  5
1ABCE
  8
0
 10
208.1380908395713
 20
165.94967571219581
 30
0.0
 40
55.0
 50
218.57266000002659
 51
231.42733999997341
  0
ARC
  5
1ABCF
  8
0
 10
208.1380908395713
 20
165.94967571219581
 30
0.0
 40
55.0
 50
38.572649999996258
 51
51.427349000014431
  0
ARC
  5
1ABD0
  8
0
 10
208.1380908395713
 20
165.94967571219581
 30
0.0
 40
55.0
 50
308.5726499999962
 51
321.42735000000368
  0
LINE
  5
1ABD1
  8
CENTER
 10
208.1380908395713
 20
219.9496677121958
 30
0.0
 11
208.1380908395713
 21
106.94968371219581
 31
0.0
  0
LINE
  5
1ABD2
  8
0
 10
138.1380908395713
 20
192.94967571219581
 30
0.0
 11
164.1380598395717
 21
192.94967571219581
 31
0.0
  0
LINE
  5
1ABD3
  8
0
 10
138.1380908395713
 20
113.94967971219531
 30
0.0
 11
278.13805983957172
 21
113.9496797121962
 31
0.0
  0
LINE
  5
1ABD4
  8
0
 10
252.1380908395713
 20
204.9496677121958
 30
0.0
 11
252.1380908395713
 21
192.94967571219581
 31
0.0
  0
LINE
  5
1ABD5
  8
0
 10
252.1380908395713
 20
192.94967571219581
 30
0.0
 11
278.13805983957172
 21
192.94967571219581
 31
0.0
  0
LINE
  5
1ABD6
  8
0
 10
138.1380908395713
 20
192.94967571219581
 30
0.0
 11
138.1380908395713
 21
113.9496797121962
 31
0.0
  0
LINE
  5
1ABD7
  8
CENTER
 10
265.1380908395713
 20
197.66894471219601
 30
0.0
 11
265.1380908395713
 21
109.0416517121955
 31
0.0
  0
LINE
  5
1ABD8
  8
CENTER
 10
258.1380908395713
 20
130.94968371219579
 30
0.0
 11
272.13805983957172
 21
130.94968371219579
 31
0.0
  0
LINE
  5
1ABD9
  8
CENTER
 10
144.1380908395713
 20
130.94968371219579
 30
0.0
 11
158.1380598395717
 21
130.94968371219579
 31
0.0
  0
LINE
  5
1ABDA
  8
0
 10
164.1380598395717
 20
204.9496677121958
 30
0.0
 11
164.1380598395717
 21
192.94967571219581
 31
0.0
  0
LINE
  5
1ABDB
  8
0
 10
247.13805683957159
 20
209.94969871219541
 30
0.0
 11
252.1380408395716
 21
204.949713712196
 31
0.0
  0
LINE
  5
1ABDC
  8
0
 10
169.1380908395713
 20
209.94968371219571
 30
0.0
 11
247.1380908395713
 21
209.94968371219571
 31
0.0
  0
LINE
  5
1ABDD
  8
0
 10
164.13805283957109
 20
204.94969471219591
 30
0.0
 11
169.1380488395715
 21
209.9496867121959
 31
0.0
  0
LINE
  5
1ABDE
  8
CENTER
 10
170.8240458395712
 20
128.6356497121958
 30
0.0
 11
183.9337988395709
 21
141.74540671219589
 31
0.0
  0
LINE
  5
1ABDF
  8
CENTER
 10
170.82399983957109
 20
141.74543871219581
 30
0.0
 11
183.93378883957121
 21
128.6356497121958
 31
0.0
  0
LINE
  5
1ABE0
  8
CENTER
 10
231.81201583957139
 20
128.1053117121962
 30
0.0
 11
245.98244383957169
 21
142.27573671219551
 31
0.0
  0
LINE
  5
1ABE1
  8
CENTER
 10
231.81201583957139
 20
142.27573671219551
 30
0.0
 11
245.98243183957129
 21
128.1053227121954
 31
0.0
  0
LINE
  5
1ABE2
  8
CENTER
 10
231.8120048395713
 20
189.6236107121955
 30
0.0
 11
245.98242783957181
 21
203.79403571219581
 31
0.0
  0
LINE
  5
1ABE3
  8
CENTER
 10
231.81201383957159
 20
203.79402471219581
 30
0.0
 11
245.9824208395712
 21
189.6236217121957
 31
0.0
  0
LINE
  5
1ABE4
  8
CENTER
 10
170.2936728395716
 20
203.79405871219541
 30
0.0
 11
184.46411983957111
 21
189.6236107121955
 31
0.0
  0
LINE
  5
1ABE5
  8
CENTER
 10
170.29371483957129
 20
189.62361271219541
 30
0.0
 11
184.46414083957089
 21
203.79403571219581
 31
0.0
  0
LINE
  5
1ABE6
  8
0
 10
181.26798683957171
 20
139.07961371219579
 30
0.0
 11
175.95536683957101
 21
140.50312771219581
 31
0.0
  0
LINE
  5
1ABE7
  8
0
 10
175.9553708395714
 20
140.5031347121955
 30
0.0
 11
172.06628283957161
 21
136.61404671219549
 31
0.0
  0
LINE
  5
1ABE8
  8
0
 10
173.4897908395715
 20
131.3014437121962
 30
0.0
 11
172.06628683957101
 21
136.61403771219619
 31
0.0
  0
LINE
  5
1ABE9
  8
0
 10
244.2097768395715
 20
136.61403371219581
 30
0.0
 11
242.78627283957121
 21
131.3014407121961
 31
0.0
  0
LINE
  5
1ABEA
  8
0
 10
240.3206888395716
 20
140.5031137121957
 30
0.0
 11
244.2097998395711
 21
136.61400571219539
 31
0.0
  0
LINE
  5
1ABEB
  8
0
 10
235.00810683957121
 20
139.07962571219531
 30
0.0
 11
240.32066983957159
 21
140.5031237121955
 31
0.0
  0
LINE
  5
1ABEC
  8
0
 10
235.0080708395717
 20
139.0796237121956
 30
0.0
 11
233.58456683957141
 21
133.76703171219529
 31
0.0
  0
LINE
  5
1ABED
  8
0
 10
233.58459583957119
 20
133.7670207121962
 30
0.0
 11
237.4737038395715
 21
129.87790971219579
 31
0.0
  0
LINE
  5
1ABEE
  8
0
 10
242.78625383957109
 20
131.3014327121962
 30
0.0
 11
237.47369283957141
 21
129.8779367121958
 31
0.0
  0
LINE
  5
1ABEF
  8
0
 10
240.32069283957119
 20
191.3962187121958
 30
0.0
 11
235.0080708395717
 21
192.81973171219559
 31
0.0
  0
LINE
  5
1ABF0
  8
0
 10
244.2097838395712
 20
195.28531971219559
 30
0.0
 11
240.32069283957119
 21
191.39622771219609
 31
0.0
  0
LINE
  5
1ABF1
  8
0
 10
242.7862648395712
 20
200.5979107121955
 30
0.0
 11
244.20977283957109
 21
195.28530471219591
 31
0.0
  0
LINE
  5
1ABF2
  8
0
 10
242.78627683957171
 20
200.5979037121958
 30
0.0
 11
237.47365483957131
 21
202.02141471219571
 31
0.0
  0
LINE
  5
1ABF3
  8
0
 10
237.4736698395709
 20
202.0214337121958
 30
0.0
 11
233.58457783957141
 21
198.13234271219571
 31
0.0
  0
LINE
  5
1ABF4
  8
0
 10
235.0081108395716
 20
192.819727712196
 30
0.0
 11
233.58460283957169
 21
198.13233471219581
 31
0.0
  0
LINE
  5
1ABF5
  8
0
 10
173.4898178395714
 20
200.59791471219589
 30
0.0
 11
178.80237983957161
 21
202.02141071219631
 31
0.0
  0
LINE
  5
1ABF6
  8
0
 10
178.80238783957151
 20
202.02141471219571
 30
0.0
 11
182.69147583957141
 21
198.1323277121962
 31
0.0
  0
LINE
  5
1ABF7
  8
0
 10
182.69148883957121
 20
198.13231971219611
 30
0.0
 11
181.267984839571
 21
192.81972971219571
 31
0.0
  0
LINE
  5
1ABF8
  8
0
 10
181.26796583957079
 20
192.8197207121955
 30
0.0
 11
175.95540083957161
 21
191.39622271219531
 31
0.0
  0
LINE
  5
1ABF9
  8
0
 10
172.0662948395711
 20
195.28532171219621
 30
0.0
 11
175.9553818395716
 21
191.3962337121954
 31
0.0
  0
LINE
  5
1ABFA
  8
0
 10
173.48981383957101
 20
200.59789971219541
 30
0.0
 11
172.0663098395716
 21
195.28531171219561
 31
0.0
  0
LINE
  5
1ABFB
  8
0
 10
165.1380908395713
 20
131.65681371219549
 30
0.0
 11
165.1380908395713
 21
200.242537712196
 31
0.0
  0
LINE
  5
1ABFC
  8
0
 10
173.84521383957139
 20
122.9496797121962
 30
0.0
 11
242.4309378395709
 21
122.9496797121962
 31
0.0
  0
LINE
  5
1ABFD
  8
0
 10
173.84521383957139
 20
208.94965271219621
 30
0.0
 11
242.4309378395709
 21
208.94965271219621
 31
0.0
  0
LINE
  5
1ABFE
  8
0
 10
251.1380598395717
 20
131.65681371219549
 30
0.0
 11
251.1380598395717
 21
200.242537712196
 31
0.0
  0
LINE
  5
1ABFF
  8
CENTER
 10
133.1380908395713
 20
165.94967571219581
 30
0.0
 11
283.13805983957172
 21
165.94967571219581
 31
0.0
  0
LINE
  5
1AC00
  8
0
 10
178.80240283957119
 20
129.8779367121958
 30
0.0
 11
173.4897828395714
 21
131.3014477121958
 31
0.0
  0
LINE
  5
1AC01
  8
0
 10
182.69148483957079
 20
133.7670207121962
 30
0.0
 11
178.80239783957131
 21
129.87793271219539
 31
0.0
  0
LINE
  5
1AC02
  8
0
 10
278.13805983957172
 20
192.94967571219581
 30
0.0
 11
278.13805983957172
 21
113.9496797121962
 31
0.0
  0
LINE
  5
1AC03
  8
CENTER
 10
151.1380908395713
 20
199.0215907121962
 30
0.0
 11
151.1380908395713
 21
109.0416517121955
 31
0.0
  0
LINE
  5
1AC04
  8
0
 10
181.26799083957121
 20
139.0796267121957
 30
0.0
 11
182.6914948395715
 21
133.76703571219579
 31
0.0
  0
LINE
  5
1AC05
  8
CENTER
 10
179.124965287463
 20
165.94967571219581
 30
0.0
 11
237.15121639167961
 21
165.94967571219581
 31
0.0
  0
LINE
  5
1AC06
  8
CENTER
 10
208.1380908395713
 20
136.93655016008751
 30
0.0
 11
208.1380908395713
 21
194.96280126430401
 31
0.0
  0
LINE
  5
1AC0B
  8
CENTER
 10
179.124965287463
 20
165.94967571219581
 30
0.0
 11
237.15121639167961
 21
165.94967571219581
 31
0.0
  0
LINE
  5
1AC0C
  8
CENTER
 10
208.1380908395713
 20
136.93655016008751
 30
0.0
 11
208.1380908395713
 21
194.96280126430401
 31
0.0
  0
LINE
  5
1AC2B
  8
HIDE
 10
352.69385731913462
 20
148.44967571219581
 30
0.0
 11
364.69385731913462
 21
148.44967571219581
 31
0.0
  0
LINE
  5
1AC2C
  8
HIDE
 10
398.69385731913462
 20
148.44967571219581
 30
0.0
 11
410.69385731913462
 21
148.44967571219581
 31
0.0
  0
LINE
  5
1AC2D
  8
HIDE
 10
352.69385731913462
 20
183.44967571219581
 30
0.0
 11
364.69385731913462
 21
183.44967571219581
 31
0.0
  0
LINE
  5
1AC2E
  8
HIDE
 10
398.69385731913462
 20
183.44967571219581
 30
0.0
 11
410.69385731913462
 21
183.44967571219581
 31
0.0
  0
LINE
  5
1AC2F
  8
0
 10
346.69382731913907
 20
122.9496752200737
 30
0.0
 11
360.69384731913118
 21
122.9496752200737
 31
0.0
  0
LINE
  5
1AC30
  8
0
 10
346.69382731913907
 20
208.94965271219701
 30
0.0
 11
360.69384731913118
 21
208.94965271219701
 31
0.0
  0
LINE
  5
1AC31
  8
0
 10
360.69384731913118
 20
192.94967571219581
 30
0.0
 11
410.69385731913462
 21
192.94967571219581
 31
0.0
  0
LINE
  5
1AC32
  8
0
 10
360.69384731913118
 20
204.94966771219489
 30
0.0
 11
410.69385731913462
 21
204.94966771219489
 31
0.0
  0
LINE
  5
1AC33
  8
0
 10
360.69384731913118
 20
113.94966771219489
 30
0.0
 11
410.69385731913462
 21
113.94966771219489
 31
0.0
  0
LINE
  5
1AC34
  8
CENTER
 10
328.31276015587167
 20
165.94967571219581
 30
0.0
 11
417.5316899026638
 21
165.94967571219581
 31
0.0
  0
LINE
  5
1AC35
  8
HIDE
 10
352.69385731913462
 20
145.94967571219581
 30
0.0
 11
364.69385731913462
 21
145.9496757121976
 31
0.0
  0
LINE
  5
1AC36
  8
HIDE
 10
398.69385731913462
 20
145.9496757121976
 30
0.0
 11
410.69385731913462
 21
145.94967571219581
 31
0.0
  0
LINE
  5
1AC37
  8
HIDE
 10
352.69385731913462
 20
185.94967571219581
 30
0.0
 11
364.69385731913462
 21
185.94967571219581
 31
0.0
  0
LINE
  5
1AC38
  8
HIDE
 10
398.69385731913462
 20
185.94967571219581
 30
0.0
 11
410.69385731913462
 21
185.9496757121976
 31
0.0
  0
LINE
  5
1AC39
  8
0
 10
360.69384731913118
 20
209.94966771219481
 30
0.0
 11
410.69385731913462
 21
209.94966771219481
 31
0.0
  0
LINE
  5
1AC3A
  8
0
 10
360.69384731913118
 20
209.94966771219481
 30
0.0
 11
360.69384731913118
 21
113.94966771219489
 31
0.0
  0
LINE
  5
1AC3B
  8
0
 10
346.69382731913907
 20
208.94965271219701
 30
0.0
 11
346.69382731913907
 21
122.9496752200737
 31
0.0
  0
LINE
  5
1AC3C
  8
0
 10
410.69385731913462
 20
209.94966771219481
 30
0.0
 11
410.69385731913462
 21
113.94966771219489
 31
0.0
  0
CIRCLE
  5
1AC3D
  8
HIDE
 10
390.19385731913462
 20
139.19967571219581
 30
0.0
 40
5.549999999999998
  0
CIRCLE
  5
1AC3E
  8
HIDE
 10
390.19385731913462
 20
192.69967571219581
 30
0.0
 40
5.549999999999998
  0
CIRCLE
  5
1AC3F
  8
HIDE
 10
373.19385731913462
 20
139.19967571219581
 30
0.0
 40
5.549999999999998
  0
CIRCLE
  5
1AC40
  8
HIDE
 10
373.19385731913462
 20
192.69967571219581
 30
0.0
 40
5.549999999999998
  0
ARC
  5
1AC41
  8
HIDE
 10
381.09385731913602
 20
201.34967571219531
 30
0.0
 40
0.6000000000000015
 50
0.0
 51
90.0
  0
ARC
  5
1AC42
  8
HIDE
 10
365.79385731913322
 20
200.84967571219539
 30
0.0
 40
1.1000000000000001
 50
90.0
 51
180.0
  0
ARC
  5
1AC43
  8
HIDE
 10
380.59385731913602
 20
184.5496757121962
 30
0.0
 40
1.1000000000000001
 50
270.0
 51
0.0
  0
ARC
  5
1AC44
  8
HIDE
 10
380.59385731913602
 20
147.34967571219539
 30
0.0
 40
1.1000000000000001
 50
0.0
 51
90.0
  0
ARC
  5
1AC45
  8
HIDE
 10
365.29385731913311
 20
184.04967571219609
 30
0.0
 40
0.6000000000000015
 50
180.0
 51
270.0
  0
ARC
  5
1AC46
  8
HIDE
 10
365.29385731913311
 20
147.84967571219539
 30
0.0
 40
0.6000000000000015
 50
90.0
 51
180.0
  0
ARC
  5
1AC47
  8
HIDE
 10
381.09385731913602
 20
130.5496757121962
 30
0.0
 40
0.6000000000000015
 50
270.0
 51
0.0
  0
ARC
  5
1AC48
  8
HIDE
 10
365.79385731913322
 20
131.0496757121962
 30
0.0
 40
1.1000000000000001
 50
180.0
 51
270.0
  0
LINE
  5
1AC49
  8
HIDE
 10
364.69385731913462
 20
195.09967571219539
 30
0.0
 11
368.18960912385052
 21
195.09967571219539
 31
0.0
  0
LINE
  5
1AC4A
  8
HIDE
 10
365.79385731913322
 20
201.94967571219581
 30
0.0
 11
381.09385731913602
 21
201.94967571219581
 31
0.0
  0
LINE
  5
1AC4B
  8
HIDE
 10
381.69385731913462
 20
190.29967571219609
 30
0.0
 11
378.19810551441878
 21
190.29967571219609
 31
0.0
  0
LINE
  5
1AC4C
  8
HIDE
 10
375.154350333678
 20
197.89187824483599
 30
0.0
 11
381.69385731913462
 21
198.54967571219609
 31
0.0
  0
LINE
  5
1AC4D
  8
HIDE
 10
364.69385731913462
 20
190.29967571219609
 30
0.0
 11
368.18960912385052
 21
190.29967571219609
 31
0.0
  0
LINE
  5
1AC4E
  8
HIDE
 10
364.69385731913462
 20
141.59967571219539
 30
0.0
 11
368.18960912385052
 21
141.59967571219539
 31
0.0
  0
LINE
  5
1AC4F
  8
HIDE
 10
365.29385731913311
 20
183.44967571219581
 30
0.0
 11
380.59385731913602
 21
183.44967571219581
 31
0.0
  0
LINE
  5
1AC50
  8
HIDE
 10
365.29385731913311
 20
148.44967571219581
 30
0.0
 11
380.59385731913602
 21
148.44967571219581
 31
0.0
  0
LINE
  5
1AC51
  8
HIDE
 10
381.69385731913462
 20
141.59967571219539
 30
0.0
 11
378.19810551441878
 21
141.59967571219539
 31
0.0
  0
LINE
  5
1AC52
  8
HIDE
 10
364.69385731913462
 20
136.7996757121962
 30
0.0
 11
368.18960912385052
 21
136.7996757121962
 31
0.0
  0
LINE
  5
1AC53
  8
HIDE
 10
381.09385731913602
 20
129.94967571219581
 30
0.0
 11
365.79385731913322
 21
129.94967571219581
 31
0.0
  0
LINE
  5
1AC54
  8
HIDE
 10
375.154350333678
 20
134.00747317955731
 30
0.0
 11
381.69385731913462
 21
133.34967571219539
 31
0.0
  0
LINE
  5
1AC55
  8
HIDE
 10
364.69385731913462
 20
131.0496757121962
 30
0.0
 11
364.69385731913462
 21
200.84967571219539
 31
0.0
  0
LINE
  5
1AC56
  8
HIDE
 10
381.69385731913462
 20
201.34967571219531
 30
0.0
 11
381.69385731913462
 21
130.5496757121962
 31
0.0
  0
ARC
  5
1AC57
  8
HIDE
 10
382.29385731913322
 20
130.5496757121962
 30
0.0
 40
0.6000000000000015
 50
180.0
 51
270.0
  0
ARC
  5
1AC58
  8
HIDE
 10
397.59385731913602
 20
131.0496757121962
 30
0.0
 40
1.1000000000000001
 50
270.0
 51
0.0
  0
ARC
  5
1AC59
  8
HIDE
 10
382.79385731913322
 20
147.34967571219539
 30
0.0
 40
1.1000000000000001
 50
90.0
 51
180.0
  0
ARC
  5
1AC5A
  8
HIDE
 10
382.79385731913322
 20
184.5496757121962
 30
0.0
 40
1.0999999999999981
 50
180.0
 51
270.0
  0
ARC
  5
1AC5B
  8
HIDE
 10
398.09385731913602
 20
147.84967571219539
 30
0.0
 40
0.6
 50
0.0
 51
90.0
  0
ARC
  5
1AC5C
  8
HIDE
 10
398.09385731913602
 20
184.04967571219609
 30
0.0
 40
0.6000000000000015
 50
270.0
 51
0.0
  0
ARC
  5
1AC5D
  8
HIDE
 10
382.29385731913322
 20
201.34967571219531
 30
0.0
 40
0.6000000000000015
 50
90.0
 51
180.0
  0
ARC
  5
1AC5E
  8
HIDE
 10
397.59385731913602
 20
200.84967571219539
 30
0.0
 40
1.1000000000000001
 50
0.0
 51
90.0
  0
LINE
  5
1AC5F
  8
HIDE
 10
398.69385731913462
 20
136.7996757121962
 30
0.0
 11
395.19810551441878
 21
136.7996757121962
 31
0.0
  0
LINE
  5
1AC60
  8
HIDE
 10
397.59385731913602
 20
129.94967571219581
 30
0.0
 11
382.29385731913322
 21
129.94967571219581
 31
0.0
  0
LINE
  5
1AC61
  8
HIDE
 10
381.69385731913462
 20
141.59967571219539
 30
0.0
 11
385.18960912385052
 21
141.59967571219539
 31
0.0
  0
LINE
  5
1AC62
  8
HIDE
 10
388.2333643045913
 20
134.00747317955731
 30
0.0
 11
381.69385731913462
 21
133.34967571219539
 31
0.0
  0
LINE
  5
1AC63
  8
HIDE
 10
398.69385731913462
 20
141.59967571219539
 30
0.0
 11
395.19810551441878
 21
141.59967571219539
 31
0.0
  0
LINE
  5
1AC64
  8
HIDE
 10
398.69385731913462
 20
190.29967571219609
 30
0.0
 11
395.19810551441878
 21
190.29967571219609
 31
0.0
  0
LINE
  5
1AC65
  8
HIDE
 10
398.09385731913602
 20
148.44967571219581
 30
0.0
 11
382.79385731913322
 21
148.44967571219581
 31
0.0
  0
LINE
  5
1AC66
  8
HIDE
 10
398.09385731913602
 20
183.44967571219581
 30
0.0
 11
382.79385731913322
 21
183.44967571219581
 31
0.0
  0
LINE
  5
1AC67
  8
HIDE
 10
381.69385731913462
 20
190.29967571219609
 30
0.0
 11
385.18960912385052
 21
190.29967571219609
 31
0.0
  0
LINE
  5
1AC68
  8
HIDE
 10
398.69385731913462
 20
195.09967571219539
 30
0.0
 11
395.19810551441878
 21
195.09967571219539
 31
0.0
  0
LINE
  5
1AC69
  8
HIDE
 10
382.29385731913322
 20
201.94967571219581
 30
0.0
 11
397.59385731913602
 21
201.94967571219581
 31
0.0
  0
LINE
  5
1AC6A
  8
HIDE
 10
388.2333643045913
 20
197.89187824483599
 30
0.0
 11
381.69385731913462
 21
198.54967571219609
 31
0.0
  0
LINE
  5
1AC6B
  8
HIDE
 10
398.69385731913462
 20
200.84967571219539
 30
0.0
 11
398.69385731913462
 21
131.0496757121962
 31
0.0
  0
LINE
  5
1AC6C
  8
CENTER
 10
372.69384731913118
 20
126.9496367121953
 30
0.0
 11
372.69384731913118
 21
96.858279468336846
 31
0.0
  0
LINE
  5
1AC6D
  8
CENTER
 10
398.69384731913129
 20
126.9496367121953
 30
0.0
 11
398.69384731913129
 21
96.858279468336846
 31
0.0
  0
LINE
  5
1ACA1
  8
HIDE
 10
352.69385731913462
 20
185.94967571219581
 30
0.0
 11
352.6938573191407
 21
145.94967571219581
 31
0.0
  0
LINE
  5
1ACA2
  8
HIDE
 10
352.19385731913769
 20
135.94967571218939
 30
0.0
 11
346.69382731913907
 21
135.94967571218939
 31
0.0
  0
LINE
  5
1ACA3
  8
HIDE
 10
346.69382731913907
 20
195.9496757121893
 30
0.0
 11
352.19385731913769
 21
195.9496757121893
 31
0.0
  0
LINE
  5
1ADAB
  8
HIDE
 10
190.6380908395713
 20
277.98554403351579
 30
0.0
 11
190.6380908395713
 21
356.98554403351568
 31
0.0
  0
LINE
  5
1ADAC
  8
HIDE
 10
225.6380908395713
 20
277.98554403351579
 30
0.0
 11
225.6380908395713
 21
356.98554403351568
 31
0.0
  0
LINE
  5
1ADAD
  8
0
 10
182.1380908395713
 20
277.98554403351568
 30
0.0
 11
182.1380908395713
 21
292.98554403351568
 31
0.0
  0
LINE
  5
1ADAE
  8
0
 10
165.1380963326819
 20
292.98554403351568
 30
0.0
 11
165.1380963326819
 21
306.98554403351568
 31
0.0
  0
LINE
  5
1ADAF
  8
0
 10
251.1380598395717
 20
292.98554403351568
 30
0.0
 11
251.1380598395717
 21
306.98554403351568
 31
0.0
  0
LINE
  5
1ADB0
  8
0
 10
234.1380908395713
 20
277.98554403351568
 30
0.0
 11
234.1380908395713
 21
292.98554403351568
 31
0.0
  0
CIRCLE
  5
1ADB1
  8
0
 10
151.1380908395713
 20
344.98554403351568
 30
0.0
 40
7.0
  0
CIRCLE
  5
1ADB2
  8
0
 10
151.1380908395713
 20
344.98554403351568
 30
0.0
 40
9.9999990000000007
  0
CIRCLE
  5
1ADB3
  8
0
 10
265.1380908395713
 20
344.98554403351568
 30
0.0
 40
7.0
  0
CIRCLE
  5
1ADB4
  8
0
 10
265.1380908395713
 20
344.98554403351568
 30
0.0
 40
9.9999990000000007
  0
CIRCLE
  5
1ADB5
  8
0
 10
151.1380908395713
 20
318.98554403351568
 30
0.0
 40
7.0
  0
CIRCLE
  5
1ADB6
  8
0
 10
151.1380908395713
 20
318.98554403351568
 30
0.0
 40
9.9999990000000007
  0
CIRCLE
  5
1ADB7
  8
0
 10
265.1380908395713
 20
318.98554403351568
 30
0.0
 40
9.9999990000000007
  0
CIRCLE
  5
1ADB8
  8
0
 10
265.1380908395713
 20
318.98554403351568
 30
0.0
 40
7.0
  0
LINE
  5
1ADB9
  8
CENTER
 10
208.1380908395713
 20
272.420379408977
 30
0.0
 11
208.1380908395713
 21
365.749790493094
 31
0.0
  0
LINE
  5
1ADBA
  8
0
 10
252.1380908395713
 20
356.98554403351568
 30
0.0
 11
252.1380908395713
 21
306.98554403351568
 31
0.0
  0
LINE
  5
1ADBB
  8
0
 10
247.1380908395713
 20
356.98554403351568
 30
0.0
 11
247.1380908395713
 21
306.98554403351568
 31
0.0
  0
LINE
  5
1ADBC
  8
0
 10
138.1380908395713
 20
356.98554403351568
 30
0.0
 11
278.13805983957172
 21
356.98554403351568
 31
0.0
  0
LINE
  5
1ADBD
  8
0
 10
138.1380908395713
 20
306.98554403351568
 30
0.0
 11
278.13805983957172
 21
306.98554403351568
 31
0.0
  0
LINE
  5
1ADBE
  8
0
 10
265.1380908395713
 20
357.61636485423219
 30
0.0
 11
265.1380908395713
 21
306.44205403351572
 31
0.0
  0
LINE
  5
1ADBF
  8
CENTER
 10
151.1380908395713
 20
357.61636485423219
 30
0.0
 11
151.1380908395713
 21
305.89515403351538
 31
0.0
  0
LINE
  5
1ADC0
  8
0
 10
278.13805983957172
 20
356.98554403351568
 30
0.0
 11
278.13805983957172
 21
306.98554403351568
 31
0.0
  0
LINE
  5
1ADC1
  8
0
 10
169.1380908395713
 20
356.98554403351568
 30
0.0
 11
169.1380908395713
 21
306.98554403351568
 31
0.0
  0
LINE
  5
1ADC2
  8
0
 10
138.1380908395713
 20
356.98554403351568
 30
0.0
 11
138.1380908395713
 21
306.98554403351568
 31
0.0
  0
LINE
  5
1ADC3
  8
0
 10
165.1380963326819
 20
292.98554403351568
 30
0.0
 11
251.1380598395717
 21
292.98554403351568
 31
0.0
  0
LINE
  5
1ADC4
  8
0
 10
164.1380598395717
 20
356.98554403351568
 30
0.0
 11
164.1380598395717
 21
306.98554403351568
 31
0.0
  0
LINE
  5
1ADC5
  8
0
 10
182.1380908395713
 20
277.98554403351568
 30
0.0
 11
234.1380908395713
 21
277.98554403351568
 31
0.0
  0
LINE
  5
1ADC6
  8
CENTER
 10
138.67548615891059
 20
318.98554403351568
 30
0.0
 11
163.60069552023191
 21
318.98554403351568
 31
0.0
  0
LINE
  5
1ADC7
  8
CENTER
 10
138.67548615891059
 20
344.98554403351568
 30
0.0
 11
163.60069552023191
 21
344.98554403351568
 31
0.0
  0
LINE
  5
1ADC8
  8
CENTER
 10
252.6754861589107
 20
344.98554403351568
 30
0.0
 11
277.60069552023202
 21
344.98554403351568
 31
0.0
  0
LINE
  5
1ADC9
  8
CENTER
 10
252.6754861589107
 20
318.98554403351568
 30
0.0
 11
277.60069552023202
 21
318.98554403351568
 31
0.0
  0
ENDSEC
  0
EOF
